  0
SECTION
  2
ENTITIES
  0
LINE
  8
0
 10
14491.32433
 11
14523.332204
 20
5933.639249
 21
5933.639249
  0
LINE
  8
0
 10
14523.332204
 11
14523.332204
 20
5933.639249
 21
5914.623501
  0
LINE
  8
0
 10
14523.332204
 11
14491.32433
 20
5914.623501
 21
5914.623501
  0
LINE
  8
0
 10
14491.32433
 11
14491.32433
 20
5914.623501
 21
5933.639249
  0
CIRCLE
  8
0
 10
14507.330282
 20
5926.84791
 40
1.771654
  0
CIRCLE
  8
0
 10
14507.330282
 20
5926.84791
 40
2.244094
  0
CIRCLE
  8
0
 10
14507.330282
 20
5926.84791
 40
2.362205
  0
CIRCLE
  8
DIMENSIONS
 10
14505.558629
 20
5926.84791
 40
0.019685
  0
CIRCLE
  8
DIMENSIONS
 10
14509.101936
 20
5926.84791
 40
0.019685
  0
CIRCLE
  8
DIMENSIONS
 10
14509.101936
 20
5922.958352
 40
0.019685
  0
CIRCLE
  8
DIMENSIONS
 10
14505.086188
 20
5926.84791
 40
0.019685
  0
CIRCLE
  8
DIMENSIONS
 10
14509.574377
 20
5926.84791
 40
0.019685
  0
CIRCLE
  8
DIMENSIONS
 10
14509.574377
 20
5921.568811
 40
0.019685
  0
CIRCLE
  8
DIMENSIONS
 10
14523.332204
 20
5933.639249
 40
0.019685
  0
CIRCLE
  8
DIMENSIONS
 10
14491.32433
 20
5933.639249
 40
0.019685
  0
CIRCLE
  8
DIMENSIONS
 10
14491.32433
 20
5938.785326
 40
0.019685
  0
CIRCLE
  8
DIMENSIONS
 10
14491.32433
 20
5914.623501
 40
0.019685
  0
CIRCLE
  8
DIMENSIONS
 10
14491.32433
 20
5933.639249
 40
0.019685
  0
CIRCLE
  8
DIMENSIONS
 10
14483.72838
 20
5933.639249
 40
0.019685
  0
CIRCLE
  8
DIMENSIONS
 10
14492.308582
 20
5915.607753
 40
0.019685
  0
CIRCLE
  8
DIMENSIONS
 10
14492.308582
 20
5932.654997
 40
0.019685
  0
CIRCLE
  8
DIMENSIONS
 10
14486.275844
 20
5932.654997
 40
0.019685
  0
CIRCLE
  8
DIMENSIONS
 10
14492.702283
 20
5916.237674
 40
0.019685
  0
CIRCLE
  8
DIMENSIONS
 10
14492.702283
 20
5932.025076
 40
0.019685
  0
CIRCLE
  8
DIMENSIONS
 10
14488.82076
 20
5932.025076
 40
0.019685
  0
CIRCLE
  8
DIMENSIONS
 10
14522.347952
 20
5918.212684
 40
0.019685
  0
CIRCLE
  8
DIMENSIONS
 10
14523.332204
 20
5918.212684
 40
0.019685
  0
CIRCLE
  8
DIMENSIONS
 10
14523.332204
 20
5918.339845
 40
0.019685
  0
CIRCLE
  8
DIMENSIONS
 10
14521.782458
 20
5915.607753
 40
0.019685
  0
CIRCLE
  8
DIMENSIONS
 10
14521.782458
 20
5914.623501
 40
0.019685
  0
CIRCLE
  8
DIMENSIONS
 10
14521.95212
 20
5914.623501
 40
0.019685
  0
CIRCLE
  8
DIMENSIONS
 10
14516.438133
 20
5915.607753
 40
0.019685
  0
CIRCLE
  8
DIMENSIONS
 10
14516.438133
 20
5916.237674
 40
0.019685
  0
CIRCLE
  8
DIMENSIONS
 10
14516.353302
 20
5916.237674
 40
0.019685
  0
CIRCLE
  8
DIMENSIONS
 10
14533.083977
 20
5932.654997
 40
0.019685
  0
CIRCLE
  8
DIMENSIONS
 10
14534.34382
 20
5932.654997
 40
0.019685
  0
CIRCLE
  8
DIMENSIONS
 10
14534.34382
 20
5934.939056
 40
0.019685
  0
CIRCLE
  8
DIMENSIONS
 10
14534.34382
 20
5932.654997
 40
0.019685
  0
CIRCLE
  8
DIMENSIONS
 10
14534.34382
 20
5932.025076
 40
0.019685
  0
CIRCLE
  8
DIMENSIONS
 10
14535.304431
 20
5932.025076
 40
0.019685
  0
CIRCLE
  8
DIMENSIONS
 10
14522.347952
 20
5904.557516
 40
0.019685
  0
CIRCLE
  8
DIMENSIONS
 10
14522.347952
 20
5905.817359
 40
0.019685
  0
CIRCLE
  8
DIMENSIONS
 10
14525.284168
 20
5905.817359
 40
0.019685
  0
CIRCLE
  8
DIMENSIONS
 10
14492.308582
 20
5932.654997
 40
0.019685
  0
CIRCLE
  8
DIMENSIONS
 10
14522.347952
 20
5932.654997
 40
0.019685
  0
CIRCLE
  8
DIMENSIONS
 10
14522.347952
 20
5936.202317
 40
0.019685
  0
CIRCLE
  8
DIMENSIONS
 10
14493.565585
 20
5896.801611
 40
0.019685
  0
CIRCLE
  8
DIMENSIONS
 10
14491.32433
 20
5905.817359
 40
0.019685
  0
CIRCLE
  8
DIMENSIONS
 10
14486.268457
 20
5905.817359
 40
0.019685
  0
CIRCLE
  8
DIMENSIONS
 10
14496.134577
 20
5898.828165
 40
0.019685
  0
CIRCLE
  8
DIMENSIONS
 10
14492.308582
 20
5904.557516
 40
0.019685
  0
CIRCLE
  8
DIMENSIONS
 10
14493.154685
 20
5896.801611
 40
0.019685
  0
CIRCLE
  8
DIMENSIONS
 10
14521.501848
 20
5896.801611
 40
0.019685
  0
CIRCLE
  8
DIMENSIONS
 10
14492.761524
 20
5897.174707
 40
0.019685
  0
CIRCLE
  8
DIMENSIONS
 10
14521.852718
 20
5897.016731
 40
0.019685
  0
CIRCLE
  8
DIMENSIONS
 10
14521.501848
 20
5897.195311
 40
0.019685
  0
CIRCLE
  8
DIMENSIONS
 10
14534.199505
 20
5913.675602
 40
0.019685
  0
CIRCLE
  8
DIMENSIONS
 10
14533.083977
 20
5933.639249
 40
0.019685
  0
CIRCLE
  8
DIMENSIONS
 10
14534.34382
 20
5915.607753
 40
0.019685
  0
CIRCLE
  8
DIMENSIONS
 10
14533.083977
 20
5915.607753
 40
0.019685
  0
CIRCLE
  8
DIMENSIONS
 10
14533.083977
 20
5914.623501
 40
0.019685
  0
CIRCLE
  8
DIMENSIONS
 10
14494.051652
 20
5905.563878
 40
0.019685
  0
CIRCLE
  8
DIMENSIONS
 10
14492.308582
 20
5905.817359
 40
0.019685
  0
CIRCLE
  8
DIMENSIONS
 10
14492.308582
 20
5904.557516
 40
0.019685
  0
CIRCLE
  8
DIMENSIONS
 10
14522.347952
 20
5904.557516
 40
0.019685
  0
CIRCLE
  8
DIMENSIONS
 10
14492.308582
 20
5904.557516
 40
0.019685
  0
CIRCLE
  8
DIMENSIONS
 10
14507.330282
 20
5931.57232
 40
0.019685
  0
CIRCLE
  8
DIMENSIONS
 10
14507.330282
 20
5926.84791
 40
0.019685
  0
CIRCLE
  8
DIMENSIONS
 10
14499.051349
 20
5926.84791
 40
0.019685
  0
LINE
  8
0
 10
14521.954251
 11
14492.702283
 20
5932.025076
 21
5932.025076
  0
ARC
  8
0
 10
14492.702283
 20
5931.631375
 40
0.393701
 50
90.0
 51
180.0
  0
LINE
  8
0
 10
14492.308582
 11
14492.761524
 20
5931.631375
 21
5931.178619
  0
ARC
  8
0
 10
14493.155225
 20
5931.178619
 40
0.393701
 50
90.0
 51
180.0
  0
LINE
  8
0
 10
14493.155225
 11
14521.50534
 20
5931.57232
 21
5931.57232
  0
LINE
  8
0
 10
14521.50534
 11
14521.954251
 20
5931.57232
 21
5932.025076
  0
ARC
  8
0
 10
14521.954251
 20
5931.631375
 40
0.393701
 50
0.0
 51
90.0
  0
LINE
  8
0
 10
14522.347952
 11
14521.89904
 20
5931.631375
 21
5931.178619
  0
ARC
  8
0
 10
14521.50534
 20
5931.178619
 40
0.393701
 50
0.0
 51
90.0
  0
LINE
  8
0
 10
14493.139423
 11
14492.702283
 20
5916.690747
 21
5916.237674
  0
LINE
  8
0
 10
14492.702283
 11
14521.954251
 20
5916.237674
 21
5916.237674
  0
ARC
  8
0
 10
14521.954251
 20
5916.631375
 40
0.393701
 50
270.0
 51
0.0
  0
LINE
  8
0
 10
14521.89904
 11
14521.89904
 20
5931.178619
 21
5917.084131
  0
ARC
  8
0
 10
14521.50534
 20
5917.084131
 40
0.393701
 50
270.0
 51
0.0
  0
LINE
  8
0
 10
14521.50534
 11
14493.155225
 20
5916.69043
 21
5916.69043
  0
ARC
  8
0
 10
14493.155225
 20
5917.084131
 40
0.393701
 50
180.0
 51
270.0
  0
LINE
  8
0
 10
14492.761524
 11
14492.308582
 20
5917.084131
 21
5916.631375
  0
ARC
  8
0
 10
14492.702283
 20
5916.631375
 40
0.393701
 50
180.0
 51
270.0
  0
LINE
  8
0
 10
14492.308582
 11
14492.761524
 20
5904.557516
 21
5897.174707
  0
ARC
  8
0
 10
14493.154685
 20
5897.195311
 40
0.393701
 50
183.0
 51
270.0
  0
LINE
  8
0
 10
14493.154685
 11
14521.501848
 20
5896.801611
 21
5896.801611
  0
ARC
  8
0
 10
14521.501848
 20
5897.195311
 40
0.393701
 50
270.0
 51
357.0
  0
LINE
  8
0
 10
14521.89501
 11
14522.347952
 20
5897.174707
 21
5904.557516
  0
LINE
  8
0
 10
14522.347952
 11
14492.308582
 20
5904.557516
 21
5904.557516
  0
LINE
  8
0
 10
14492.308582
 11
14492.308582
 20
5904.557516
 21
5905.817359
  0
LINE
  8
0
 10
14533.083977
 11
14534.34382
 20
5915.607753
 21
5915.607753
  0
LINE
  8
0
 10
14534.34382
 11
14534.34382
 20
5915.607753
 21
5916.237674
  0
LINE
  8
0
 10
14534.34382
 11
14541.726629
 20
5916.237674
 21
5916.624591
  0
ARC
  8
0
 10
14541.706024
 20
5917.017752
 40
0.393701
 50
273.0
 51
0.0
  0
LINE
  8
0
 10
14542.099725
 11
14542.099725
 20
5917.017752
 21
5931.244998
  0
ARC
  8
0
 10
14541.706024
 20
5931.244998
 40
0.393701
 50
0.0
 51
87.0
  0
LINE
  8
0
 10
14541.726629
 11
14534.34382
 20
5931.638159
 21
5932.025076
  0
LINE
  8
0
 10
14534.34382
 11
14534.34382
 20
5932.025076
 21
5932.654997
  0
LINE
  8
0
 10
14534.34382
 11
14533.083977
 20
5932.654997
 21
5932.654997
  0
LINE
  8
0
 10
14492.308582
 11
14522.347952
 20
5932.654997
 21
5932.654997
  0
LINE
  8
0
 10
14522.347952
 11
14522.347952
 20
5932.654997
 21
5915.607753
  0
LINE
  8
0
 10
14522.347952
 11
14492.308582
 20
5915.607753
 21
5915.607753
  0
LINE
  8
0
 10
14492.308582
 11
14492.308582
 20
5915.607753
 21
5932.654997
  0
LINE
  8
0
 10
14493.155225
 11
14505.421883
 20
5917.084131
 21
5925.455781
  0
LINE
  8
0
 10
14493.155225
 11
14505.065282
 20
5931.178619
 21
5927.51857
  0
LINE
  8
0
 10
14521.50534
 11
14509.595283
 20
5931.178619
 21
5927.51857
  0
LINE
  8
0
 10
14521.50534
 11
14509.238681
 20
5917.084131
 21
5925.455781
  0
LINE
  8
0
 10
14491.32433
 11
14523.332204
 20
5905.817359
 21
5905.817359
  0
LINE
  8
0
 10
14509.690472
 11
14509.572361
 20
5896.801611
 21
5896.6835
  0
LINE
  8
0
 10
14509.572361
 11
14509.09992
 20
5896.6835
 21
5896.60476
  0
LINE
  8
0
 10
14509.09992
 11
14505.556613
 20
5896.60476
 21
5896.60476
  0
LINE
  8
0
 10
14505.556613
 11
14505.084172
 20
5896.60476
 21
5896.6835
  0
LINE
  8
0
 10
14505.084172
 11
14504.966062
 20
5896.6835
 21
5896.801611
  0
LINE
  8
0
 10
14509.572361
 11
14505.084172
 20
5896.6835
 21
5896.6835
  0
LINE
  8
0
 10
14533.083977
 11
14533.083977
 20
5933.639249
 21
5914.623501
  0
LINE
  8
0
 10
14542.099725
 11
14542.217835
 20
5929.538576
 21
5929.420466
  0
LINE
  8
0
 10
14542.217835
 11
14542.296576
 20
5929.420466
 21
5928.948025
  0
LINE
  8
0
 10
14542.296576
 11
14542.296576
 20
5928.948025
 21
5925.404718
  0
LINE
  8
0
 10
14542.296576
 11
14542.217835
 20
5925.404718
 21
5924.932277
  0
LINE
  8
0
 10
14542.217835
 11
14542.099725
 20
5924.932277
 21
5924.814167
  0
LINE
  8
0
 10
14542.217835
 11
14542.217835
 20
5929.420466
 21
5924.932277
  0
LINE
  8
0
 10
14492.761524
 11
14492.761524
 20
5931.178619
 21
5917.084131
  0
LINE
  8
0
 10
14493.155225
 11
14492.702283
 20
5931.57232
 21
5932.025076
  0
LINE
  8
0
 10
14521.483081
 11
14521.95212
 20
5916.69043
 21
5916.237674
  0
LINE
  8
0
 10
14521.89904
 11
14522.347952
 20
5917.084131
 21
5916.622179
  0
LINE
  8
0
 10
14522.347952
 11
14522.347952
 20
5905.817359
 21
5904.557516
  0
ARC
  8
DIMENSIONS
 10
14492.784414
 20
5896.801611
 40
3.91542
 50
14.441114
 51
79.069635
  0
ARC
  8
DIMENSIONS
 10
14533.083977
 20
5915.607753
 40
2.231056
 50
219.027627
 51
244.513813
  0
ARC
  8
DIMENSIONS
 10
14533.083977
 20
5915.607753
 40
2.231056
 50
25.486187
 51
50.972373
  0
LINE
  8
DIMENSIONS
 10
14533.083977
 11
14532.160153
 20
5913.376697
 21
5913.753805
  0
LINE
  8
DIMENSIONS
 10
14532.160153
 11
14532.087784
 20
5913.753805
 21
5913.433802
  0
LINE
  8
DIMENSIONS
 10
14532.087784
 11
14533.083977
 20
5913.433802
 21
5913.376697
  0
ARC
  8
DIMENSIONS
 10
14533.083977
 20
5915.607753
 40
2.231056
 50
270.0
 51
0.0
  0
LINE
  8
DIMENSIONS
 10
14535.315033
 11
14534.937925
 20
5915.607753
 21
5916.531577
  0
LINE
  8
DIMENSIONS
 10
14534.937925
 11
14535.257928
 20
5916.531577
 21
5916.603946
  0
LINE
  8
DIMENSIONS
 10
14535.257928
 11
14535.315033
 20
5916.603946
 21
5915.607753
  0
ARC
  8
DIMENSIONS
 10
14492.308582
 20
5904.557516
 40
2.012724
 50
303.389105
 51
331.694553
  0
ARC
  8
DIMENSIONS
 10
14492.308582
 20
5904.557516
 40
2.012724
 50
118.305447
 51
146.610895
  0
LINE
  8
DIMENSIONS
 10
14494.321306
 11
14493.921586
 20
5904.557516
 21
5903.643248
  0
LINE
  8
DIMENSIONS
 10
14493.921586
 11
14494.239712
 20
5903.643248
 21
5903.563029
  0
LINE
  8
DIMENSIONS
 10
14494.239712
 11
14494.321306
 20
5903.563029
 21
5904.557516
  0
ARC
  8
DIMENSIONS
 10
14492.308582
 20
5904.557516
 40
2.012724
 50
0.0
 51
90.0
  0
LINE
  8
DIMENSIONS
 10
14492.308582
 11
14491.394314
 20
5906.570241
 21
5906.170521
  0
LINE
  8
DIMENSIONS
 10
14491.394314
 11
14491.314095
 20
5906.170521
 21
5906.488647
  0
LINE
  8
DIMENSIONS
 10
14491.314095
 11
14492.308582
 20
5906.488647
 21
5906.570241
  0
LINE
  8
DIMENSIONS
 10
14505.558629
 11
14505.558629
 20
5926.65106
 21
5922.909139
  0
LINE
  8
DIMENSIONS
 10
14509.101936
 11
14509.101936
 20
5926.65106
 21
5922.909139
  0
LINE
  8
DIMENSIONS
 10
14506.14918
 11
14508.511385
 20
5922.958352
 21
5922.958352
  0
LINE
  8
DIMENSIONS
 10
14506.14918
 11
14506.14918
 20
5923.056777
 21
5922.859926
  0
LINE
  8
DIMENSIONS
 10
14506.14918
 11
14505.558629
 20
5922.859926
 21
5922.958352
  0
LINE
  8
DIMENSIONS
 10
14505.558629
 11
14506.14918
 20
5922.958352
 21
5923.056777
  0
LINE
  8
DIMENSIONS
 10
14508.511385
 11
14508.511385
 20
5923.056777
 21
5922.859926
  0
LINE
  8
DIMENSIONS
 10
14508.511385
 11
14509.101936
 20
5922.859926
 21
5922.958352
  0
LINE
  8
DIMENSIONS
 10
14509.101936
 11
14508.511385
 20
5922.958352
 21
5923.056777
  0
LINE
  8
DIMENSIONS
 10
14505.086188
 11
14505.086188
 20
5926.65106
 21
5921.519599
  0
LINE
  8
DIMENSIONS
 10
14509.574377
 11
14509.574377
 20
5926.65106
 21
5921.519599
  0
LINE
  8
DIMENSIONS
 10
14505.676739
 11
14508.983826
 20
5921.568811
 21
5921.568811
  0
LINE
  8
DIMENSIONS
 10
14505.676739
 11
14505.676739
 20
5921.667237
 21
5921.470386
  0
LINE
  8
DIMENSIONS
 10
14505.676739
 11
14505.086188
 20
5921.470386
 21
5921.568811
  0
LINE
  8
DIMENSIONS
 10
14505.086188
 11
14505.676739
 20
5921.568811
 21
5921.667237
  0
LINE
  8
DIMENSIONS
 10
14508.983826
 11
14508.983826
 20
5921.667237
 21
5921.470386
  0
LINE
  8
DIMENSIONS
 10
14508.983826
 11
14509.574377
 20
5921.470386
 21
5921.568811
  0
LINE
  8
DIMENSIONS
 10
14509.574377
 11
14508.983826
 20
5921.568811
 21
5921.667237
  0
LINE
  8
DIMENSIONS
 10
14523.332204
 11
14523.332204
 20
5933.836099
 21
5938.834539
  0
LINE
  8
DIMENSIONS
 10
14491.32433
 11
14491.32433
 20
5933.836099
 21
5938.834539
  0
LINE
  8
DIMENSIONS
 10
14522.938503
 11
14491.718031
 20
5938.785326
 21
5938.785326
  0
LINE
  8
DIMENSIONS
 10
14522.938503
 11
14522.938503
 20
5938.850943
 21
5938.719709
  0
LINE
  8
DIMENSIONS
 10
14522.938503
 11
14523.332204
 20
5938.719709
 21
5938.785326
  0
LINE
  8
DIMENSIONS
 10
14523.332204
 11
14522.938503
 20
5938.785326
 21
5938.850943
  0
LINE
  8
DIMENSIONS
 10
14491.718031
 11
14491.718031
 20
5938.850943
 21
5938.719709
  0
LINE
  8
DIMENSIONS
 10
14491.718031
 11
14491.32433
 20
5938.719709
 21
5938.785326
  0
LINE
  8
DIMENSIONS
 10
14491.32433
 11
14491.718031
 20
5938.785326
 21
5938.850943
  0
LINE
  8
DIMENSIONS
 10
14491.127479
 11
14483.679167
 20
5914.623501
 21
5914.623501
  0
LINE
  8
DIMENSIONS
 10
14491.127479
 11
14483.679167
 20
5933.639249
 21
5933.639249
  0
LINE
  8
DIMENSIONS
 10
14483.72838
 11
14483.72838
 20
5915.017202
 21
5933.245548
  0
LINE
  8
DIMENSIONS
 10
14483.662763
 11
14483.793997
 20
5915.017202
 21
5915.017202
  0
LINE
  8
DIMENSIONS
 10
14483.793997
 11
14483.72838
 20
5915.017202
 21
5914.623501
  0
LINE
  8
DIMENSIONS
 10
14483.72838
 11
14483.662763
 20
5914.623501
 21
5915.017202
  0
LINE
  8
DIMENSIONS
 10
14483.662763
 11
14483.793997
 20
5933.245548
 21
5933.245548
  0
LINE
  8
DIMENSIONS
 10
14483.793997
 11
14483.72838
 20
5933.245548
 21
5933.639249
  0
LINE
  8
DIMENSIONS
 10
14483.72838
 11
14483.662763
 20
5933.639249
 21
5933.245548
  0
LINE
  8
DIMENSIONS
 10
14492.111731
 11
14486.226631
 20
5915.607753
 21
5915.607753
  0
LINE
  8
DIMENSIONS
 10
14492.111731
 11
14486.226631
 20
5932.654997
 21
5932.654997
  0
LINE
  8
DIMENSIONS
 10
14486.275844
 11
14486.275844
 20
5916.001454
 21
5932.261296
  0
LINE
  8
DIMENSIONS
 10
14486.210227
 11
14486.34146
 20
5916.001454
 21
5916.001454
  0
LINE
  8
DIMENSIONS
 10
14486.34146
 11
14486.275844
 20
5916.001454
 21
5915.607753
  0
LINE
  8
DIMENSIONS
 10
14486.275844
 11
14486.210227
 20
5915.607753
 21
5916.001454
  0
LINE
  8
DIMENSIONS
 10
14486.210227
 11
14486.34146
 20
5932.261296
 21
5932.261296
  0
LINE
  8
DIMENSIONS
 10
14486.34146
 11
14486.275844
 20
5932.261296
 21
5932.654997
  0
LINE
  8
DIMENSIONS
 10
14486.275844
 11
14486.210227
 20
5932.654997
 21
5932.261296
  0
LINE
  8
DIMENSIONS
 10
14492.505432
 11
14488.771547
 20
5916.237674
 21
5916.237674
  0
LINE
  8
DIMENSIONS
 10
14492.505432
 11
14488.771547
 20
5932.025076
 21
5932.025076
  0
LINE
  8
DIMENSIONS
 10
14488.82076
 11
14488.82076
 20
5916.631375
 21
5931.631375
  0
LINE
  8
DIMENSIONS
 10
14488.755143
 11
14488.886377
 20
5916.631375
 21
5916.631375
  0
LINE
  8
DIMENSIONS
 10
14488.886377
 11
14488.82076
 20
5916.631375
 21
5916.237674
  0
LINE
  8
DIMENSIONS
 10
14488.82076
 11
14488.755143
 20
5916.237674
 21
5916.631375
  0
LINE
  8
DIMENSIONS
 10
14488.755143
 11
14488.886377
 20
5931.631375
 21
5931.631375
  0
LINE
  8
DIMENSIONS
 10
14488.886377
 11
14488.82076
 20
5931.631375
 21
5932.025076
  0
LINE
  8
DIMENSIONS
 10
14488.82076
 11
14488.755143
 20
5932.025076
 21
5931.631375
  0
LINE
  8
DIMENSIONS
 10
14488.102156
 11
14486.941153
 20
5921.978145
 21
5922.791088
  0
LINE
  8
DIMENSIONS
 10
14522.347952
 11
14522.347952
 20
5918.606385
 21
5918.457955
  0
LINE
  8
DIMENSIONS
 10
14523.332204
 11
14523.332204
 20
5918.606385
 21
5918.457955
  0
LINE
  8
DIMENSIONS
 10
14521.3637
 11
14520.379448
 20
5918.339845
 21
5918.339845
  0
LINE
  8
DIMENSIONS
 10
14524.316456
 11
14527.128489
 20
5918.339845
 21
5918.339845
  0
LINE
  8
DIMENSIONS
 10
14522.347952
 11
14521.3637
 20
5918.339845
 21
5918.503887
  0
LINE
  8
DIMENSIONS
 10
14521.3637
 11
14521.3637
 20
5918.503887
 21
5918.175803
  0
LINE
  8
DIMENSIONS
 10
14521.3637
 11
14522.347952
 20
5918.175803
 21
5918.339845
  0
LINE
  8
DIMENSIONS
 10
14522.347952
 11
14523.332204
 20
5918.339845
 21
5918.339845
  0
LINE
  8
DIMENSIONS
 10
14523.332204
 11
14524.316456
 20
5918.339845
 21
5918.175803
  0
LINE
  8
DIMENSIONS
 10
14524.316456
 11
14524.316456
 20
5918.175803
 21
5918.503887
  0
LINE
  8
DIMENSIONS
 10
14524.316456
 11
14523.332204
 20
5918.503887
 21
5918.339845
  0
LINE
  8
DIMENSIONS
 10
14522.176159
 11
14522.07023
 20
5915.607753
 21
5915.607753
  0
LINE
  8
DIMENSIONS
 10
14522.176159
 11
14522.07023
 20
5914.623501
 21
5914.623501
  0
LINE
  8
DIMENSIONS
 10
14521.95212
 11
14521.95212
 20
5916.592005
 21
5917.576257
  0
LINE
  8
DIMENSIONS
 10
14521.95212
 11
14521.95212
 20
5913.639249
 21
5910.827216
  0
LINE
  8
DIMENSIONS
 10
14521.95212
 11
14521.788078
 20
5915.607753
 21
5916.592005
  0
LINE
  8
DIMENSIONS
 10
14521.788078
 11
14522.116162
 20
5916.592005
 21
5916.592005
  0
LINE
  8
DIMENSIONS
 10
14522.116162
 11
14521.95212
 20
5916.592005
 21
5915.607753
  0
LINE
  8
DIMENSIONS
 10
14521.95212
 11
14521.95212
 20
5915.607753
 21
5914.623501
  0
LINE
  8
DIMENSIONS
 10
14521.95212
 11
14522.116162
 20
5914.623501
 21
5913.639249
  0
LINE
  8
DIMENSIONS
 10
14522.116162
 11
14521.788078
 20
5913.639249
 21
5913.639249
  0
LINE
  8
DIMENSIONS
 10
14521.788078
 11
14521.95212
 20
5913.639249
 21
5914.623501
  0
LINE
  8
DIMENSIONS
 10
14516.044432
 11
14516.235192
 20
5915.607753
 21
5915.607753
  0
LINE
  8
DIMENSIONS
 10
14516.044432
 11
14516.235192
 20
5916.237674
 21
5916.237674
  0
LINE
  8
DIMENSIONS
 10
14516.353302
 11
14516.353302
 20
5914.623501
 21
5913.639249
  0
LINE
  8
DIMENSIONS
 10
14516.353302
 11
14516.353302
 20
5917.221926
 21
5919.916467
  0
LINE
  8
DIMENSIONS
 10
14516.353302
 11
14516.18926
 20
5915.607753
 21
5914.623501
  0
LINE
  8
DIMENSIONS
 10
14516.18926
 11
14516.517344
 20
5914.623501
 21
5914.623501
  0
LINE
  8
DIMENSIONS
 10
14516.517344
 11
14516.353302
 20
5914.623501
 21
5915.607753
  0
LINE
  8
DIMENSIONS
 10
14516.353302
 11
14516.353302
 20
5915.607753
 21
5916.237674
  0
LINE
  8
DIMENSIONS
 10
14516.353302
 11
14516.517344
 20
5916.237674
 21
5917.221926
  0
LINE
  8
DIMENSIONS
 10
14516.517344
 11
14516.18926
 20
5917.221926
 21
5917.221926
  0
LINE
  8
DIMENSIONS
 10
14516.18926
 11
14516.353302
 20
5917.221926
 21
5916.237674
  0
LINE
  8
DIMENSIONS
 10
14533.083977
 11
14533.083977
 20
5933.048698
 21
5935.057167
  0
LINE
  8
DIMENSIONS
 10
14534.34382
 11
14534.34382
 20
5933.048698
 21
5935.057167
  0
LINE
  8
DIMENSIONS
 10
14532.099725
 11
14531.115473
 20
5934.939056
 21
5934.939056
  0
LINE
  8
DIMENSIONS
 10
14535.328072
 11
14538.105193
 20
5934.939056
 21
5934.939056
  0
LINE
  8
DIMENSIONS
 10
14533.083977
 11
14532.099725
 20
5934.939056
 21
5935.103098
  0
LINE
  8
DIMENSIONS
 10
14532.099725
 11
14532.099725
 20
5935.103098
 21
5934.775014
  0
LINE
  8
DIMENSIONS
 10
14532.099725
 11
14533.083977
 20
5934.775014
 21
5934.939056
  0
LINE
  8
DIMENSIONS
 10
14533.083977
 11
14534.34382
 20
5934.939056
 21
5934.939056
  0
LINE
  8
DIMENSIONS
 10
14534.34382
 11
14535.328072
 20
5934.939056
 21
5934.775014
  0
LINE
  8
DIMENSIONS
 10
14535.328072
 11
14535.328072
 20
5934.775014
 21
5935.103098
  0
LINE
  8
DIMENSIONS
 10
14535.328072
 11
14534.34382
 20
5935.103098
 21
5934.939056
  0
LINE
  8
DIMENSIONS
 10
14534.73752
 11
14535.422542
 20
5932.654997
 21
5932.654997
  0
LINE
  8
DIMENSIONS
 10
14534.73752
 11
14535.422542
 20
5932.025076
 21
5932.025076
  0
LINE
  8
DIMENSIONS
 10
14535.304431
 11
14535.304431
 20
5933.639249
 21
5934.623501
  0
LINE
  8
DIMENSIONS
 10
14535.304431
 11
14535.304431
 20
5931.040824
 21
5928.346283
  0
LINE
  8
DIMENSIONS
 10
14535.304431
 11
14535.140389
 20
5932.654997
 21
5933.639249
  0
LINE
  8
DIMENSIONS
 10
14535.140389
 11
14535.468473
 20
5933.639249
 21
5933.639249
  0
LINE
  8
DIMENSIONS
 10
14535.468473
 11
14535.304431
 20
5933.639249
 21
5932.654997
  0
LINE
  8
DIMENSIONS
 10
14535.304431
 11
14535.304431
 20
5932.654997
 21
5932.025076
  0
LINE
  8
DIMENSIONS
 10
14535.304431
 11
14535.468473
 20
5932.025076
 21
5931.040824
  0
LINE
  8
DIMENSIONS
 10
14535.468473
 11
14535.140389
 20
5931.040824
 21
5931.040824
  0
LINE
  8
DIMENSIONS
 10
14535.140389
 11
14535.304431
 20
5931.040824
 21
5932.025076
  0
LINE
  8
DIMENSIONS
 10
14522.741653
 11
14525.402278
 20
5904.557516
 21
5904.557516
  0
LINE
  8
DIMENSIONS
 10
14522.741653
 11
14525.402278
 20
5905.817359
 21
5905.817359
  0
LINE
  8
DIMENSIONS
 10
14525.284168
 11
14525.284168
 20
5903.573264
 21
5902.589012
  0
LINE
  8
DIMENSIONS
 10
14525.284168
 11
14525.284168
 20
5906.801611
 21
5909.578732
  0
LINE
  8
DIMENSIONS
 10
14525.284168
 11
14525.120126
 20
5904.557516
 21
5903.573264
  0
LINE
  8
DIMENSIONS
 10
14525.120126
 11
14525.44821
 20
5903.573264
 21
5903.573264
  0
LINE
  8
DIMENSIONS
 10
14525.44821
 11
14525.284168
 20
5903.573264
 21
5904.557516
  0
LINE
  8
DIMENSIONS
 10
14525.284168
 11
14525.284168
 20
5904.557516
 21
5905.817359
  0
LINE
  8
DIMENSIONS
 10
14525.284168
 11
14525.44821
 20
5905.817359
 21
5906.801611
  0
LINE
  8
DIMENSIONS
 10
14525.44821
 11
14525.120126
 20
5906.801611
 21
5906.801611
  0
LINE
  8
DIMENSIONS
 10
14525.120126
 11
14525.284168
 20
5906.801611
 21
5905.817359
  0
LINE
  8
DIMENSIONS
 10
14492.308582
 11
14492.308582
 20
5932.851847
 21
5936.251529
  0
LINE
  8
DIMENSIONS
 10
14522.347952
 11
14522.347952
 20
5932.851847
 21
5936.251529
  0
LINE
  8
DIMENSIONS
 10
14492.702283
 11
14521.954251
 20
5936.202317
 21
5936.202317
  0
LINE
  8
DIMENSIONS
 10
14492.702283
 11
14492.702283
 20
5936.267933
 21
5936.1367
  0
LINE
  8
DIMENSIONS
 10
14492.702283
 11
14492.308582
 20
5936.1367
 21
5936.202317
  0
LINE
  8
DIMENSIONS
 10
14492.308582
 11
14492.702283
 20
5936.202317
 21
5936.267933
  0
LINE
  8
DIMENSIONS
 10
14521.954251
 11
14521.954251
 20
5936.267933
 21
5936.1367
  0
LINE
  8
DIMENSIONS
 10
14521.954251
 11
14522.347952
 20
5936.1367
 21
5936.202317
  0
LINE
  8
DIMENSIONS
 10
14522.347952
 11
14521.954251
 20
5936.202317
 21
5936.267933
  0
LINE
  8
DIMENSIONS
 10
14493.368734
 11
14486.219245
 20
5896.801611
 21
5896.801611
  0
LINE
  8
DIMENSIONS
 10
14491.127479
 11
14486.219245
 20
5905.817359
 21
5905.817359
  0
LINE
  8
DIMENSIONS
 10
14486.268457
 11
14486.268457
 20
5897.195311
 21
5905.423658
  0
LINE
  8
DIMENSIONS
 10
14486.20284
 11
14486.334074
 20
5897.195311
 21
5897.195311
  0
LINE
  8
DIMENSIONS
 10
14486.334074
 11
14486.268457
 20
5897.195311
 21
5896.801611
  0
LINE
  8
DIMENSIONS
 10
14486.268457
 11
14486.20284
 20
5896.801611
 21
5897.195311
  0
LINE
  8
DIMENSIONS
 10
14486.20284
 11
14486.334074
 20
5905.423658
 21
5905.423658
  0
LINE
  8
DIMENSIONS
 10
14486.334074
 11
14486.268457
 20
5905.423658
 21
5905.817359
  0
LINE
  8
DIMENSIONS
 10
14486.268457
 11
14486.20284
 20
5905.817359
 21
5905.423658
  0
LINE
  8
DIMENSIONS
 10
14496.738865
 11
14496.413383
 20
5897.798676
 21
5897.757439
  0
LINE
  8
DIMENSIONS
 10
14496.413383
 11
14496.699834
 20
5897.757439
 21
5896.801611
  0
LINE
  8
DIMENSIONS
 10
14496.699834
 11
14496.738865
 20
5896.801611
 21
5897.798676
  0
LINE
  8
DIMENSIONS
 10
14493.516225
 11
14493.537454
 20
5900.482301
 21
5900.809697
  0
LINE
  8
DIMENSIONS
 10
14493.537454
 11
14492.54465
 20
5900.809697
 21
5900.709683
  0
LINE
  8
DIMENSIONS
 10
14492.54465
 11
14493.516225
 20
5900.709683
 21
5900.482301
  0
LINE
  8
DIMENSIONS
 10
14516.713151
 11
14520.975544
 20
5899.632593
 21
5897.463182
  0
LINE
  8
DIMENSIONS
 10
14521.049953
 11
14520.901136
 20
5897.609378
 21
5897.316987
  0
LINE
  8
DIMENSIONS
 10
14520.901136
 11
14521.852718
 20
5897.316987
 21
5897.016731
  0
LINE
  8
DIMENSIONS
 10
14521.852718
 11
14521.049953
 20
5897.016731
 21
5897.609378
  0
LINE
  8
DIMENSIONS
 10
14533.083977
 11
14533.083977
 20
5914.2298
 21
5913.258587
  0
LINE
  8
DIMENSIONS
 10
14534.73752
 11
14535.433143
 20
5915.607753
 21
5915.607753
  0
LINE
  8
DIMENSIONS
 10
14492.308582
 11
14492.308582
 20
5906.211059
 21
5906.688351
  0
LINE
  8
DIMENSIONS
 10
14507.133432
 11
14499.002136
 20
5931.57232
 21
5931.57232
  0
LINE
  8
DIMENSIONS
 10
14507.133432
 11
14499.002136
 20
5926.84791
 21
5926.84791
  0
LINE
  8
DIMENSIONS
 10
14499.051349
 11
14499.051349
 20
5930.981769
 21
5927.438462
  0
LINE
  8
DIMENSIONS
 10
14498.952924
 11
14499.149774
 20
5930.981769
 21
5930.981769
  0
LINE
  8
DIMENSIONS
 10
14499.149774
 11
14499.051349
 20
5930.981769
 21
5931.57232
  0
LINE
  8
DIMENSIONS
 10
14499.051349
 11
14498.952924
 20
5931.57232
 21
5930.981769
  0
LINE
  8
DIMENSIONS
 10
14498.952924
 11
14499.149774
 20
5927.438462
 21
5927.438462
  0
LINE
  8
DIMENSIONS
 10
14499.149774
 11
14499.051349
 20
5927.438462
 21
5926.84791
  0
LINE
  8
DIMENSIONS
 10
14499.051349
 11
14498.952924
 20
5926.84791
 21
5927.438462
  0
LINE
  8
0
 10
14504.377526
 11
14510.283038
 20
5926.84791
 21
5926.84791
  0
LINE
  8
0
 10
14507.330282
 11
14507.330282
 20
5929.800666
 21
5923.895155
  0
LINE
  8
0
 10
14507.328267
 11
14507.328267
 20
5895.39409
 21
5897.972911
  0
LINE
  8
0
 10
14543.507246
 11
14540.928425
 20
5927.176372
 21
5927.176372
  0
TEXT
  8
0
 10
14534.910212
 20
5897.780978
 30
0.0
 40
2.006252
 50
0.0
  1
Model£º
  0
TEXT
  8
0
 10
14544.952678
 20
5897.780978
 30
0.0
 40
2.006252
 50
0.0
  1
ACS3219
  0
TEXT
  8
0
 10
14506.782834
 20
5923.167287
 30
0.0
 40
0.708661
 50
0.0
  1
90
  0
TEXT
  8
0
 10
14506.474426
 20
5921.765662
 30
0.0
 40
0.708661
 50
0.0
  1
114
  0
TEXT
  8
0
 10
14504.550179
 20
5939.37577
 30
0.0
 40
0.708661
 50
0.0
  1
32" [813mm]
  0
TEXT
  8
0
 10
14483.137936
 20
5921.320174
 30
0.0
 40
0.708661
 50
90.0
  1
19" [483mm]
  0
TEXT
  8
0
 10
14485.6854
 20
5921.320174
 30
0.0
 40
0.708661
 50
90.0
  1
17" [433mm]
  0
TEXT
  8
0
 10
14488.230316
 20
5920.701264
 30
0.0
 40
0.708661
 50
90.0
  1
15
  0
TEXT
  8
0
 10
14487.521655
 20
5921.760872
 30
0.0
 40
0.708661
 50
90.0
  1
3
  0
TEXT
  8
0
 10
14488.230316
 20
5922.490158
 30
0.0
 40
0.708661
 50
90.0
  1
4
  0
TEXT
  8
0
 10
14488.230316
 20
5923.040265
 30
0.0
 40
0.708661
 50
90.0
  1
" [401mm]
  0
TEXT
  8
0
 10
14525.457275
 20
5918.55348
 30
0.0
 40
0.984252
 50
0.0
  1
25
  0
TEXT
  8
0
 10
14521.738485
 20
5910.983783
 30
0.0
 40
0.984252
 50
90.0
  1
25
  0
TEXT
  8
0
 10
14516.139667
 20
5918.253309
 30
0.0
 40
0.984252
 50
90.0
  1
16
  0
TEXT
  8
0
 10
14536.451435
 20
5935.153363
 30
0.0
 40
0.984252
 50
0.0
  1
32
  0
TEXT
  8
0
 10
14535.090796
 20
5928.393414
 30
0.0
 40
0.984252
 50
90.0
  1
16
  0
TEXT
  8
0
 10
14525.069862
 20
5907.924974
 30
0.0
 40
0.984252
 50
90.0
  1
32
  0
TEXT
  8
0
 10
14504.550179
 20
5936.79276
 30
0.0
 40
0.708661
 50
0.0
  1
30" [763mm]
  0
TEXT
  8
0
 10
14485.678013
 20
5898.806933
 30
0.0
 40
0.708661
 50
90.0
  1
9" [229mm]
  0
TEXT
  8
0
 10
14496.006255
 20
5898.948386
 30
0.0
 40
0.984252
 50
0.0
  1
93,5°
  0
TEXT
  8
0
 10
14516.889156
 20
5899.782727
 30
0.0
 40
0.984252
 50
333.025477
  1
R10
  0
TEXT
  8
0
 10
14534.167673
 20
5913.245236
 30
0.0
 40
0.984252
 50
0.0
  1
90°
  0
TEXT
  8
0
 10
14494.226728
 20
5905.19563
 30
0.0
 40
0.984252
 50
0.0
  1
90°
  0
TEXT
  8
0
 10
14498.842414
 20
5928.354017
 30
0.0
 40
0.708661
 50
90.0
  1
120
  0
ENDSEC
  0
EOF
