  0
SECTION
  2
ENTITIES
  0
LINE
  8
APS_GEOMETRY
 10
-8.5
 11
8.5
 20
-1.250011
 21
-1.250011
  0
ARC
  8
APS_GEOMETRY
 10
8.5
 20
-0.750011
 40
0.5
 50
270.0
 51
0.0
  0
LINE
  8
APS_GEOMETRY
 10
9.0
 11
9.0
 20
-0.750011
 21
10.999989
  0
ARC
  8
APS_GEOMETRY
 10
8.5
 20
10.999989
 40
0.5
 50
0.0
 51
90.0
  0
LINE
  8
APS_GEOMETRY
 10
8.5
 11
-8.5
 20
11.499989
 21
11.499989
  0
ARC
  8
APS_GEOMETRY
 10
-8.5
 20
10.999989
 40
0.5
 50
90.0
 51
180.0
  0
LINE
  8
APS_GEOMETRY
 10
-9.0
 11
-9.0
 20
10.999989
 21
-0.750011
  0
ARC
  8
APS_GEOMETRY
 10
-8.5
 20
-0.750011
 40
0.5
 50
180.0
 51
270.0
  0
LINE
  8
APS_GEOMETRY
 10
-7.499981
 11
7.499981
 20
-0.25
 21
-0.25
  0
ARC
  8
APS_GEOMETRY
 10
7.499981
 20
0.25
 40
0.5
 50
270.0
 51
0.0
  0
LINE
  8
APS_GEOMETRY
 10
7.999981
 11
7.999981
 20
0.25
 21
9.999977
  0
ARC
  8
APS_GEOMETRY
 10
7.499981
 20
9.999977
 40
0.5
 50
0.0
 51
90.0
  0
LINE
  8
APS_GEOMETRY
 10
7.499981
 11
-7.499981
 20
10.499977
 21
10.499977
  0
ARC
  8
APS_GEOMETRY
 10
-7.499981
 20
9.999977
 40
0.5
 50
90.0
 51
180.0
  0
LINE
  8
APS_GEOMETRY
 10
-7.999981
 11
-7.999981
 20
9.999977
 21
0.25
  0
ARC
  8
APS_GEOMETRY
 10
-7.499981
 20
0.25
 40
0.5
 50
180.0
 51
270.0
  0
LINE
  8
APS_GEOMETRY
 10
-7.249981
 11
7.249981
 20
0.0
 21
0.0
  0
ARC
  8
APS_GEOMETRY
 10
7.249981
 20
0.5
 40
0.5
 50
270.0
 51
0.0
  0
LINE
  8
APS_GEOMETRY
 10
7.749981
 11
7.749981
 20
0.5
 21
9.749977
  0
ARC
  8
APS_GEOMETRY
 10
7.249981
 20
9.749977
 40
0.5
 50
0.0
 51
90.0
  0
LINE
  8
APS_GEOMETRY
 10
7.249981
 11
-7.249981
 20
10.249977
 21
10.249977
  0
ARC
  8
APS_GEOMETRY
 10
-7.249981
 20
9.749977
 40
0.5
 50
90.0
 51
180.0
  0
LINE
  8
APS_GEOMETRY
 10
-7.749981
 11
-7.749981
 20
9.749977
 21
0.5
  0
ARC
  8
APS_GEOMETRY
 10
-7.249981
 20
0.5
 40
0.5
 50
180.0
 51
270.0
  0
CIRCLE
  8
APS_GEOMETRY
 10
-9.5
 20
10.999989
 40
0.125
  0
CIRCLE
  8
APS_GEOMETRY
 10
-9.5
 20
-0.750011
 40
0.125
  0
CIRCLE
  8
APS_GEOMETRY
 10
9.5
 20
10.999989
 40
0.125
  0
CIRCLE
  8
APS_GEOMETRY
 10
9.5
 20
-0.750011
 40
0.125
  0
TEXT
  8
TEXT
 10
-0.236663
 20
5.741499
 30
0.0
 40
1.25
 50
0.0
  1
SINKSOURCE
  0
TEXT
  8
TEXT
 10
-0.236663
 20
3.866499
 30
0.0
 40
1.25
 50
0.0
  1
1628
  0
TEXT
  8
TEXT
 10
-0.236663
 20
1.991499
 30
0.0
 40
1.25
 50
0.0
  1

  0
ENDSEC
  0
EOF
