  0
SECTION
  2
ENTITIES
  0
ARC
  8
CONSTRUCTION
 10
2.668782
 20
6.01
 40
6.023718
 50
0.0
 51
27.22799
  0
ARC
  8
CONSTRUCTION
 10
1.381137
 20
5.347445
 40
7.471824
 50
27.22799
 51
51.165766
  0
ARC
  8
CONSTRUCTION
 10
0.544835
 20
4.308567
 40
8.805491
 50
51.165766
 51
71.559348
  0
ARC
  8
CONSTRUCTION
 10
0.0
 20
2.674604
 40
10.527896
 50
71.559348
 51
90.0
  0
ARC
  8
CONSTRUCTION
 10
0.0
 20
2.674604
 40
10.527896
 50
90.0
 51
108.440652
  0
ARC
  8
CONSTRUCTION
 10
-0.544835
 20
4.308567
 40
8.805491
 50
108.440652
 51
128.834234
  0
ARC
  8
CONSTRUCTION
 10
-1.381137
 20
5.347445
 40
7.471824
 50
128.834234
 51
152.77201
  0
ARC
  8
CONSTRUCTION
 10
-2.668782
 20
6.01
 40
6.023718
 50
152.77201
 51
180.0
  0
ARC
  8
CONSTRUCTION
 10
-2.668782
 20
6.01
 40
6.023718
 50
180.0
 51
207.22799
  0
ARC
  8
CONSTRUCTION
 10
-1.381137
 20
6.672555
 40
7.471824
 50
207.22799
 51
231.165766
  0
ARC
  8
CONSTRUCTION
 10
-0.544835
 20
7.711433
 40
8.805491
 50
231.165766
 51
251.559348
  0
ARC
  8
CONSTRUCTION
 10
0.0
 20
9.345396
 40
10.527896
 50
251.559348
 51
270.0
  0
ARC
  8
CONSTRUCTION
 10
0.0
 20
9.345396
 40
10.527896
 50
270.0
 51
288.440652
  0
ARC
  8
CONSTRUCTION
 10
0.544835
 20
7.711433
 40
8.805491
 50
288.440652
 51
308.834234
  0
ARC
  8
CONSTRUCTION
 10
1.381137
 20
6.672555
 40
7.471824
 50
308.834234
 51
332.77201
  0
ARC
  8
CONSTRUCTION
 10
2.668782
 20
6.01
 40
6.023718
 50
332.77201
 51
0.0
  0
CIRCLE
  8
APS_GEOMETRY
 10
-7.559132
 20
10.385534
 40
0.125
  0
CIRCLE
  8
APS_GEOMETRY
 10
7.559132
 20
10.385534
 40
0.125
  0
CIRCLE
  8
APS_GEOMETRY
 10
6.380023
 20
0.462796
 40
0.125
  0
CIRCLE
  8
APS_GEOMETRY
 10
-6.380023
 20
0.462796
 40
0.125
  0
ARC
  8
APS_GEOMETRY
 10
2.668782
 20
6.01
 40
4.841218
 50
0.0
 51
27.22799
  0
ARC
  8
APS_GEOMETRY
 10
1.381137
 20
5.347445
 40
6.289324
 50
27.22799
 51
51.165766
  0
ARC
  8
APS_GEOMETRY
 10
0.544835
 20
4.308567
 40
7.622991
 50
51.165766
 51
71.559348
  0
ARC
  8
APS_GEOMETRY
 10
0.0
 20
2.674604
 40
9.345396
 50
71.559348
 51
90.0
  0
ARC
  8
APS_GEOMETRY
 10
0.0
 20
2.674604
 40
9.345396
 50
90.0
 51
108.440652
  0
ARC
  8
APS_GEOMETRY
 10
-0.544835
 20
4.308567
 40
7.622991
 50
108.440652
 51
128.834234
  0
ARC
  8
APS_GEOMETRY
 10
-1.381137
 20
5.347445
 40
6.289324
 50
128.834234
 51
152.77201
  0
ARC
  8
APS_GEOMETRY
 10
-2.668782
 20
6.01
 40
4.841218
 50
152.77201
 51
180.0
  0
ARC
  8
APS_GEOMETRY
 10
-2.668782
 20
6.01
 40
4.841218
 50
180.0
 51
207.22799
  0
ARC
  8
APS_GEOMETRY
 10
-1.381137
 20
6.672555
 40
6.289324
 50
207.22799
 51
231.165766
  0
ARC
  8
APS_GEOMETRY
 10
-0.544835
 20
7.711433
 40
7.622991
 50
231.165766
 51
251.559348
  0
ARC
  8
APS_GEOMETRY
 10
0.0
 20
9.345396
 40
9.345396
 50
251.559348
 51
270.0
  0
ARC
  8
APS_GEOMETRY
 10
0.0
 20
9.345396
 40
9.345396
 50
270.0
 51
288.440652
  0
ARC
  8
APS_GEOMETRY
 10
0.544835
 20
7.711433
 40
7.622991
 50
288.440652
 51
308.834234
  0
ARC
  8
APS_GEOMETRY
 10
1.381137
 20
6.672555
 40
6.289324
 50
308.834234
 51
332.77201
  0
ARC
  8
APS_GEOMETRY
 10
2.668782
 20
6.01
 40
4.841218
 50
332.77201
 51
0.0
  0
CIRCLE
  8
APS_GEOMETRY
 10
0.0
 20
14.22
 40
0.6925
  0
CIRCLE
  8
APS_GEOMETRY
 10
-2.0
 20
14.22
 40
0.6925
  0
CIRCLE
  8
APS_GEOMETRY
 10
-4.0
 20
13.503836
 40
0.6925
  0
CIRCLE
  8
APS_GEOMETRY
 10
2.0
 20
14.22
 40
0.6925
  0
CIRCLE
  8
APS_GEOMETRY
 10
4.0
 20
13.503836
 40
0.6925
  0
LINE
  8
DIMENSIONS
 10
-6.614114
 11
-7.831487
 20
8.198675
 21
8.550703
  0
LINE
  8
DIMENSIONS
 10
-7.831487
 11
-6.56575
 20
8.550703
 21
8.612609
  0
LINE
  8
DIMENSIONS
 10
-6.56575
 11
-6.614114
 20
8.612609
 21
8.198675
  0
LINE
  8
DIMENSIONS
 10
-7.831487
 11
-4.838157
 20
8.550703
 21
8.200967
  0
LINE
  8
DIMENSIONS
 10
-6.107741
 11
-7.373979
 20
4.819872
 21
4.870476
  0
LINE
  8
DIMENSIONS
 10
-7.373979
 11
-6.159797
 20
4.870476
 21
5.233358
  0
LINE
  8
DIMENSIONS
 10
-6.159797
 11
-6.107741
 20
5.233358
 21
4.819872
  0
LINE
  8
DIMENSIONS
 10
-7.373979
 11
-4.94102
 20
4.870476
 21
5.176778
  0
TEXT
  8
TEXT
 10
-4.324469
 20
7.746688
 30
0.0
 40
1.0
 50
0.0
  1
SINK
  0
TEXT
  8
TEXT
 10
-4.324469
 20
6.246688
 30
0.0
 40
1.0
 50
0.0
  1

  0
TEXT
  8
TEXT
 10
-4.324469
 20
4.746688
 30
0.0
 40
1.0
 50
0.0
  1
CUTOUT
  0
TEXT
  8
TEXT
 10
-22.828028
 20
-3.071398
 30
0.0
 40
1.5
 50
0.0
  1
SINKSOURCE
  0
TEXT
  8
TEXT
 10
-22.828028
 20
-5.321398
 30
0.0
 40
1.5
 50
0.0
  1
1512 - 3/16TH INCH OVERHANG
  0
ENDSEC
  0
EOF
