  0
SECTION
  2
ENTITIES
  0
ARC
  8
CONSTRUCTION
 10
2.371344
 20
6.56012
 40
7.420613
 50
18.517578
 51
35.817526
  0
ARC
  8
CONSTRUCTION
 10
1.717551
 20
6.088286
 40
8.226885
 50
35.817526
 51
51.340192
  0
ARC
  8
CONSTRUCTION
 10
0.583371
 20
4.670561
 40
10.042458
 50
51.340192
 51
65.208719
  0
ARC
  8
CONSTRUCTION
 10
0.208552
 20
3.859053
 40
10.936345
 50
65.208719
 51
77.901209
  0
ARC
  8
CONSTRUCTION
 10
0.0
 20
2.886145
 40
11.931355
 50
77.901209
 51
78.250375
  0
LINE
  8
CONSTRUCTION
 10
2.429646
 11
-2.429646
 20
14.5675
 21
14.5675
  0
ARC
  8
CONSTRUCTION
 10
0.0
 20
2.886145
 40
11.931355
 50
101.749625
 51
102.098791
  0
ARC
  8
CONSTRUCTION
 10
-0.208552
 20
3.859053
 40
10.936345
 50
102.098791
 51
114.791281
  0
ARC
  8
CONSTRUCTION
 10
-0.583371
 20
4.670561
 40
10.042458
 50
114.791281
 51
128.659808
  0
ARC
  8
CONSTRUCTION
 10
-1.717551
 20
6.088286
 40
8.226885
 50
128.659808
 51
144.182474
  0
ARC
  8
CONSTRUCTION
 10
-2.371344
 20
6.56012
 40
7.420613
 50
144.182474
 51
161.482422
  0
ARC
  8
CONSTRUCTION
 10
-3.139787
 20
6.8175
 40
6.610213
 50
161.482422
 51
198.517578
  0
ARC
  8
CONSTRUCTION
 10
-2.371344
 20
7.07488
 40
7.420613
 50
198.517578
 51
215.817526
  0
ARC
  8
CONSTRUCTION
 10
-1.717551
 20
7.546714
 40
8.226885
 50
215.817526
 51
231.340192
  0
ARC
  8
CONSTRUCTION
 10
-0.583371
 20
8.964439
 40
10.042458
 50
231.340192
 51
245.208719
  0
ARC
  8
CONSTRUCTION
 10
-0.208552
 20
9.775947
 40
10.936345
 50
245.208719
 51
257.901209
  0
ARC
  8
CONSTRUCTION
 10
0.0
 20
10.748855
 40
11.931355
 50
257.901209
 51
282.098791
  0
ARC
  8
CONSTRUCTION
 10
0.208552
 20
9.775947
 40
10.936345
 50
282.098791
 51
294.791281
  0
ARC
  8
CONSTRUCTION
 10
0.583371
 20
8.964439
 40
10.042458
 50
294.791281
 51
308.659808
  0
ARC
  8
CONSTRUCTION
 10
1.717551
 20
7.546714
 40
8.226885
 50
308.659808
 51
324.182474
  0
ARC
  8
CONSTRUCTION
 10
2.371344
 20
7.07488
 40
7.420613
 50
324.182474
 51
341.482422
  0
ARC
  8
CONSTRUCTION
 10
3.139787
 20
6.8175
 40
6.610213
 50
341.482422
 51
18.517578
  0
ARC
  8
APS_GEOMETRY
 10
3.139787
 20
6.8175
 40
5.427713
 50
0.0
 51
18.517578
  0
ARC
  8
APS_GEOMETRY
 10
2.371344
 20
6.56012
 40
6.238113
 50
18.517578
 51
35.817526
  0
ARC
  8
APS_GEOMETRY
 10
1.717551
 20
6.088286
 40
7.044385
 50
35.817526
 51
51.340192
  0
ARC
  8
APS_GEOMETRY
 10
0.583371
 20
4.670561
 40
8.859958
 50
51.340192
 51
65.208719
  0
ARC
  8
APS_GEOMETRY
 10
0.208552
 20
3.859053
 40
9.753845
 50
65.208719
 51
77.901209
  0
ARC
  8
APS_GEOMETRY
 10
0.0
 20
2.886145
 40
10.748855
 50
77.901209
 51
90.0
  0
ARC
  8
APS_GEOMETRY
 10
0.0
 20
2.886145
 40
10.748855
 50
90.0
 51
102.098791
  0
ARC
  8
APS_GEOMETRY
 10
-0.208552
 20
3.859053
 40
9.753845
 50
102.098791
 51
114.791281
  0
ARC
  8
APS_GEOMETRY
 10
-0.583371
 20
4.670561
 40
8.859958
 50
114.791281
 51
128.659808
  0
ARC
  8
APS_GEOMETRY
 10
-1.717551
 20
6.088286
 40
7.044385
 50
128.659808
 51
144.182474
  0
ARC
  8
APS_GEOMETRY
 10
-2.371344
 20
6.56012
 40
6.238113
 50
144.182474
 51
161.482422
  0
ARC
  8
APS_GEOMETRY
 10
-3.139787
 20
6.8175
 40
5.427713
 50
161.482422
 51
180.0
  0
ARC
  8
APS_GEOMETRY
 10
-3.139787
 20
6.8175
 40
5.427713
 50
180.0
 51
198.517578
  0
ARC
  8
APS_GEOMETRY
 10
-2.371344
 20
7.07488
 40
6.238113
 50
198.517578
 51
215.817526
  0
ARC
  8
APS_GEOMETRY
 10
-1.717551
 20
7.546714
 40
7.044385
 50
215.817526
 51
231.340192
  0
ARC
  8
APS_GEOMETRY
 10
-0.583371
 20
8.964439
 40
8.859958
 50
231.340192
 51
245.208719
  0
ARC
  8
APS_GEOMETRY
 10
-0.208552
 20
9.775947
 40
9.753845
 50
245.208719
 51
257.901209
  0
ARC
  8
APS_GEOMETRY
 10
0.0
 20
10.748855
 40
10.748855
 50
257.901209
 51
270.0
  0
ARC
  8
APS_GEOMETRY
 10
0.0
 20
10.748855
 40
10.748855
 50
270.0
 51
282.098791
  0
ARC
  8
APS_GEOMETRY
 10
0.208552
 20
9.775947
 40
9.753845
 50
282.098791
 51
294.791281
  0
ARC
  8
APS_GEOMETRY
 10
0.583371
 20
8.964439
 40
8.859958
 50
294.791281
 51
308.659808
  0
ARC
  8
APS_GEOMETRY
 10
1.717551
 20
7.546714
 40
7.044385
 50
308.659808
 51
324.182474
  0
ARC
  8
APS_GEOMETRY
 10
2.371344
 20
7.07488
 40
6.238113
 50
324.182474
 51
341.482422
  0
ARC
  8
APS_GEOMETRY
 10
3.139787
 20
6.8175
 40
5.427713
 50
341.482422
 51
0.0
  0
CIRCLE
  8
APS_GEOMETRY
 10
-8.039535
 20
12.104184
 40
0.125
  0
CIRCLE
  8
APS_GEOMETRY
 10
8.039535
 20
12.104184
 40
0.125
  0
CIRCLE
  8
APS_GEOMETRY
 10
8.039535
 20
1.530816
 40
0.125
  0
CIRCLE
  8
APS_GEOMETRY
 10
-8.039535
 20
1.530816
 40
0.125
  0
CIRCLE
  8
APS_GEOMETRY
 10
0.0
 20
15.835
 40
0.6925
  0
CIRCLE
  8
APS_GEOMETRY
 10
-4.0
 20
15.201698
 40
0.6925
  0
CIRCLE
  8
APS_GEOMETRY
 10
4.0
 20
15.19569
 40
0.6925
  0
CIRCLE
  8
APS_GEOMETRY
 10
-2.0
 20
15.835
 40
0.6925
  0
CIRCLE
  8
APS_GEOMETRY
 10
2.0
 20
15.835
 40
0.6925
  0
LINE
  8
DIMENSIONS
 10
-6.855873
 11
-7.936329
 20
10.333687
 21
10.995907
  0
LINE
  8
DIMENSIONS
 10
-7.936329
 11
-6.699484
 20
10.995907
 21
10.719981
  0
LINE
  8
DIMENSIONS
 10
-6.699484
 11
-6.855873
 20
10.719981
 21
10.333687
  0
LINE
  8
DIMENSIONS
 10
-7.936329
 11
-4.635722
 20
10.995907
 21
9.659675
  0
LINE
  8
DIMENSIONS
 10
-7.035748
 11
-8.278952
 20
6.398898
 21
6.644588
  0
LINE
  8
DIMENSIONS
 10
-8.278952
 11
-7.023276
 20
6.644588
 21
6.815462
  0
LINE
  8
DIMENSIONS
 10
-7.023276
 11
-7.035748
 20
6.815462
 21
6.398898
  0
LINE
  8
DIMENSIONS
 10
-8.278952
 11
-4.464411
 20
6.644588
 21
6.53038
  0
TEXT
  8
TEXT
 10
-22.127066
 20
-3.326686
 30
0.0
 40
1.5
 50
0.0
  1
SINKSOURCE
  0
TEXT
  8
TEXT
 10
-22.127066
 20
-5.576686
 30
0.0
 40
1.5
 50
0.0
  1
1714 - 3/16 OVERHANG
  0
TEXT
  8
TEXT
 10
-4.024627
 20
9.027769
 30
0.0
 40
1.0
 50
0.0
  1
SINK
  0
TEXT
  8
TEXT
 10
-4.024627
 20
7.527769
 30
0.0
 40
1.0
 50
0.0
  1

  0
TEXT
  8
TEXT
 10
-4.024627
 20
6.027769
 30
0.0
 40
1.0
 50
0.0
  1
CUTOUT
  0
ENDSEC
  0
EOF
